ISO-10303-21;
HEADER;
FILE_DESCRIPTION (( 'STEP AP203' ),
    '1' );
FILE_NAME ('250814 STEP 3-400575-01_13468.STEP',
    '2025-08-14T09:20:56',
    ( '' ),
    ( '' ),
    'SwSTEP 2.0',
    'SolidWorks 2024',
    '' );
FILE_SCHEMA (( 'CONFIG_CONTROL_DESIGN' ));
ENDSEC;

DATA;
#1 = ORIENTED_EDGE ( 'NONE', *, *, #203, .F. ) ;
#2 = PLANE ( 'NONE',  #181 ) ;
#3 = AXIS2_PLACEMENT_3D ( 'NONE', #217, #91, #151 ) ;
#4 = COORDINATED_UNIVERSAL_TIME_OFFSET ( 2, 0, .AHEAD. ) ;
#5 = FACE_BOUND ( 'NONE', #112, .T. ) ;
#6 = EDGE_LOOP ( 'NONE', ( #306 ) ) ;
#7 = PRODUCT ( '250814 STEP 3-400575-01_13468', '250814 STEP 3-400575-01_13468', '', ( #102 ) ) ;
#8 = CARTESIAN_POINT ( 'NONE',  ( 0.000000000000000000, 0.000000000000000000, -1.448888739433602524 ) ) ;
#9 = AXIS2_PLACEMENT_3D ( 'NONE', #302, #36, #283 ) ;
#10 = FACE_OUTER_BOUND ( 'NONE', #148, .T. ) ;
#11 = ADVANCED_FACE ( 'NONE', ( #211, #309 ), #51, .T. ) ;
#12 = DIRECTION ( 'NONE',  ( 1.000000000000000000, 0.000000000000000000, 0.000000000000000000 ) ) ;
#13 = CARTESIAN_POINT ( 'NONE',  ( 0.000000000000000000, 3.024999999999999911, -1.999999999999994893 ) ) ;
#14 = CIRCLE ( 'NONE', #304, 15.00000000000000000 ) ;
#15 = CARTESIAN_POINT ( 'NONE',  ( 0.000000000000000000, 0.000000000000000000, 3.399999999999999911 ) ) ;
#16 = CARTESIAN_POINT ( 'NONE',  ( -2.000000000000000000, 0.000000000000000000, -2.000000000000001776 ) ) ;
#17 = ADVANCED_FACE ( 'NONE', ( #105, #281 ), #212, .F. ) ;
#18 = CARTESIAN_POINT ( 'NONE',  ( -11.11177143234621667, 0.000000000000000000, -1.448888739433602524 ) ) ;
#19 = AXIS2_PLACEMENT_3D ( 'NONE', #179, #234, #257 ) ;
#20 =( GEOMETRIC_REPRESENTATION_CONTEXT ( 3 ) GLOBAL_UNCERTAINTY_ASSIGNED_CONTEXT ( ( #191 ) ) GLOBAL_UNIT_ASSIGNED_CONTEXT ( ( #325, #204, #252 ) ) REPRESENTATION_CONTEXT ( 'NONE', 'WORKASPACE' ) );
#21 = CARTESIAN_POINT ( 'NONE',  ( 0.000000000000000000, 0.000000000000000000, 0.000000000000000000 ) ) ;
#22 = EDGE_LOOP ( 'NONE', ( #154 ) ) ;
#23 = ADVANCED_FACE ( 'NONE', ( #137, #5 ), #237, .F. ) ;
#24 = CARTESIAN_POINT ( 'NONE',  ( -4.000000000000000000, 0.000000000000000000, -1.999999999999994893 ) ) ;
#25 = LOCAL_TIME ( 12, 20, 56.00000000000000000, #280 ) ;
#26 = PERSON_AND_ORGANIZATION ( #85, #210 ) ;
#27 = CIRCLE ( 'NONE', #72, 4.000000000000000000 ) ;
#28 = EDGE_LOOP ( 'NONE', ( #229 ) ) ;
#29 = CALENDAR_DATE ( 2025, 14, 8 ) ;
#30 = ORIENTED_EDGE ( 'NONE', *, *, #50, .T. ) ;
#31 = APPROVAL_STATUS ( 'not_yet_approved' ) ;
#32 = FACE_OUTER_BOUND ( 'NONE', #22, .T. ) ;
#33 = DATE_AND_TIME ( #106, #44 ) ;
#34 = FACE_BOUND ( 'NONE', #254, .T. ) ;
#35 = APPROVAL_ROLE ( '' ) ;
#36 = DIRECTION ( 'NONE',  ( -0.000000000000000000, -0.000000000000000000, 1.000000000000000000 ) ) ;
#37 = CARTESIAN_POINT ( 'NONE',  ( 0.000000000000000000, 0.000000000000000000, -2.490736444124057591 ) ) ;
#38 = FACE_OUTER_BOUND ( 'NONE', #239, .T. ) ;
#39 = CIRCLE ( 'NONE', #81, 4.000000000000000000 ) ;
#40 = AXIS2_PLACEMENT_3D ( 'NONE', #8, #164, #220 ) ;
#41 = DIRECTION ( 'NONE',  ( -0.000000000000000000, -0.000000000000000000, 1.000000000000000000 ) ) ;
#42 = DIRECTION ( 'NONE',  ( 1.000000000000000000, 0.000000000000000000, 0.000000000000000000 ) ) ;
#43 = DIRECTION ( 'NONE',  ( 1.000000000000000000, 0.000000000000000000, 0.000000000000000000 ) ) ;
#44 = LOCAL_TIME ( 12, 20, 56.00000000000000000, #4 ) ;
#45 = AXIS2_PLACEMENT_3D ( 'NONE', #21, #170, #225 ) ;
#46 = FACE_BOUND ( 'NONE', #28, .T. ) ;
#47 = MANIFOLD_SOLID_BREP ( 'DeleteFace3', #139 ) ;
#48 = ADVANCED_BREP_SHAPE_REPRESENTATION ( '250814 STEP 3-400575-01_13468', ( #47, #45 ), #20 ) ;
#49 = APPROVAL_DATE_TIME ( #295, #287 ) ;
#50 = EDGE_CURVE ( 'NONE', #55, #55, #39, .T. ) ;
#51 = CONICAL_SURFACE ( 'NONE', #279, 11.11177143234621667, 1.308996938995746318 ) ;
#52 = VERTEX_POINT ( 'NONE', #16 ) ;
#53 = EDGE_LOOP ( 'NONE', ( #74 ) ) ;
#54 = DESIGN_CONTEXT ( 'detailed design', #90, 'design' ) ;
#55 = VERTEX_POINT ( 'NONE', #228 ) ;
#56 = ORIENTED_EDGE ( 'NONE', *, *, #312, .F. ) ;
#57 = ORIENTED_EDGE ( 'NONE', *, *, #162, .F. ) ;
#58 = FACE_OUTER_BOUND ( 'NONE', #296, .T. ) ;
#59 = ORIENTED_EDGE ( 'NONE', *, *, #149, .F. ) ;
#60 = ADVANCED_FACE ( 'NONE', ( #130, #58 ), #231, .F. ) ;
#61 = APPROVAL_STATUS ( 'not_yet_approved' ) ;
#62 = ORIENTED_EDGE ( 'NONE', *, *, #236, .T. ) ;
#63 = PRODUCT_DEFINITION_FORMATION_WITH_SPECIFIED_SOURCE ( 'ANY', '', #7, .NOT_KNOWN. ) ;
#64 = DIRECTION ( 'NONE',  ( 1.000000000000000000, 0.000000000000000000, 0.000000000000000000 ) ) ;
#65 = DIRECTION ( 'NONE',  ( -0.000000000000000000, -0.000000000000000000, 1.000000000000000000 ) ) ;
#66 = DIRECTION ( 'NONE',  ( -0.000000000000000000, -0.000000000000000000, 1.000000000000000000 ) ) ;
#67 = PRODUCT_RELATED_PRODUCT_CATEGORY ( 'detail', '', ( #7 ) ) ;
#68 = CIRCLE ( 'NONE', #40, 11.11177143234621667 ) ;
#69 = FACE_OUTER_BOUND ( 'NONE', #161, .T. ) ;
#70 = CARTESIAN_POINT ( 'NONE',  ( 0.000000000000000000, 0.000000000000000000, 4.336808689942017736E-16 ) ) ;
#71 = APPROVAL ( #61, 'UNSPECIFIED' ) ;
#72 = AXIS2_PLACEMENT_3D ( 'NONE', #195, #315, #168 ) ;
#73 = PERSON_AND_ORGANIZATION_ROLE ( 'design_owner' ) ;
#74 = ORIENTED_EDGE ( 'NONE', *, *, #249, .F. ) ;
#75 = DIRECTION ( 'NONE',  ( 0.000000000000000000, -0.000000000000000000, 1.000000000000000000 ) ) ;
#76 = VERTEX_POINT ( 'NONE', #324 ) ;
#77 = DATE_TIME_ROLE ( 'classification_date' ) ;
#78 = ADVANCED_FACE ( 'NONE', ( #79, #34 ), #111, .F. ) ;
#79 = FACE_OUTER_BOUND ( 'NONE', #173, .T. ) ;
#80 = CC_DESIGN_APPROVAL ( #287, ( #193 ) ) ;
#81 = AXIS2_PLACEMENT_3D ( 'NONE', #89, #109, #189 ) ;
#82 = EDGE_LOOP ( 'NONE', ( #308 ) ) ;
#83 = PRODUCT_DEFINITION_SHAPE ( 'NONE', 'NONE',  #193 ) ;
#84 = ORIENTED_EDGE ( 'NONE', *, *, #142, .T. ) ;
#85 = PERSON ( 'UNSPECIFIED', 'UNSPECIFIED', 'UNSPECIFIED', ('UNSPECIFIED'), ('UNSPECIFIED'), ('UNSPECIFIED') ) ;
#86 = ADVANCED_FACE ( 'NONE', ( #278, #32 ), #2, .T. ) ;
#87 = ORIENTED_EDGE ( 'NONE', *, *, #197, .F. ) ;
#88 = LOCAL_TIME ( 12, 20, 56.00000000000000000, #303 ) ;
#89 = CARTESIAN_POINT ( 'NONE',  ( 0.000000000000000000, 0.000000000000000000, 2.000000000000005329 ) ) ;
#90 = APPLICATION_CONTEXT ( 'configuration controlled 3d designs of mechanical parts and assemblies' ) ;
#91 = DIRECTION ( 'NONE',  ( -0.000000000000000000, -0.000000000000000000, 1.000000000000000000 ) ) ;
#92 = DIRECTION ( 'NONE',  ( -0.000000000000000000, -0.000000000000000000, 1.000000000000000000 ) ) ;
#93 = DIRECTION ( 'NONE',  ( -1.000000000000000000, 0.000000000000000000, 0.000000000000000000 ) ) ;
#94 = FACE_OUTER_BOUND ( 'NONE', #199, .T. ) ;
#95 = CC_DESIGN_DATE_AND_TIME_ASSIGNMENT ( #178, #77, ( #322 ) ) ;
#96 = DIRECTION ( 'NONE',  ( 0.000000000000000000, 0.000000000000000000, -1.000000000000000000 ) ) ;
#97 = APPROVAL_ROLE ( '' ) ;
#98 = EDGE_LOOP ( 'NONE', ( #30 ) ) ;
#99 = CIRCLE ( 'NONE', #321, 4.000000000000000000 ) ;
#100 = VERTEX_POINT ( 'NONE', #202 ) ;
#101 = ORIENTED_EDGE ( 'NONE', *, *, #197, .T. ) ;
#102 = MECHANICAL_CONTEXT ( 'NONE', #242, 'mechanical' ) ;
#103 = CC_DESIGN_DATE_AND_TIME_ASSIGNMENT ( #182, #155, ( #193 ) ) ;
#104 = COORDINATED_UNIVERSAL_TIME_OFFSET ( 2, 0, .AHEAD. ) ;
#105 = FACE_OUTER_BOUND ( 'NONE', #286, .T. ) ;
#106 = CALENDAR_DATE ( 2025, 14, 8 ) ;
#107 = CARTESIAN_POINT ( 'NONE',  ( 0.000000000000000000, 6.169784565231699602, -3.399999999999999911 ) ) ;
#108 = SECURITY_CLASSIFICATION_LEVEL ( 'unclassified' ) ;
#109 = DIRECTION ( 'NONE',  ( -0.000000000000000000, -0.000000000000000000, -1.000000000000000000 ) ) ;
#110 = APPROVAL_DATE_TIME ( #33, #71 ) ;
#111 = PLANE ( 'NONE',  #19 ) ;
#112 = EDGE_LOOP ( 'NONE', ( #152 ) ) ;
#113 = FACE_OUTER_BOUND ( 'NONE', #98, .T. ) ;
#114 = ADVANCED_FACE ( 'NONE', ( #38, #140 ), #166, .T. ) ;
#115 = CYLINDRICAL_SURFACE ( 'NONE', #128, 15.00000000000000000 ) ;
#116 = CARTESIAN_POINT ( 'NONE',  ( 0.000000000000000000, 0.000000000000000000, 1.448888739433601858 ) ) ;
#117 = CARTESIAN_POINT ( 'NONE',  ( 0.000000000000000000, 0.000000000000000000, -2.490736444124057591 ) ) ;
#118 = CC_DESIGN_PERSON_AND_ORGANIZATION_ASSIGNMENT ( #282, #131, ( #63 ) ) ;
#119 = DIRECTION ( 'NONE',  ( 0.000000000000000000, 0.000000000000000000, 1.000000000000000000 ) ) ;
#120 = CARTESIAN_POINT ( 'NONE',  ( 15.00000000000000000, 0.000000000000000000, -3.399999999999999911 ) ) ;
#121 = EDGE_LOOP ( 'NONE', ( #101 ) ) ;
#122 = AXIS2_PLACEMENT_3D ( 'NONE', #107, #310, #209 ) ;
#123 = CC_DESIGN_PERSON_AND_ORGANIZATION_ASSIGNMENT ( #276, #129, ( #322 ) ) ;
#124 = PLANE ( 'NONE',  #216 ) ;
#125 = EDGE_LOOP ( 'NONE', ( #214 ) ) ;
#126 = CARTESIAN_POINT ( 'NONE',  ( 0.000000000000000000, 2.149999999999999911, 2.000000000000005329 ) ) ;
#127 = ADVANCED_FACE ( 'NONE', ( #144, #69 ), #311, .F. ) ;
#128 = AXIS2_PLACEMENT_3D ( 'NONE', #218, #92, #143 ) ;
#129 = PERSON_AND_ORGANIZATION_ROLE ( 'classification_officer' ) ;
#130 = FACE_OUTER_BOUND ( 'NONE', #136, .T. ) ;
#131 = PERSON_AND_ORGANIZATION_ROLE ( 'design_supplier' ) ;
#132 = ORIENTED_EDGE ( 'NONE', *, *, #236, .F. ) ;
#133 = PERSON_AND_ORGANIZATION ( #85, #210 ) ;
#134 = ORIENTED_EDGE ( 'NONE', *, *, #312, .T. ) ;
#135 = CALENDAR_DATE ( 2025, 14, 8 ) ;
#136 = EDGE_LOOP ( 'NONE', ( #329 ) ) ;
#137 = FACE_OUTER_BOUND ( 'NONE', #298, .T. ) ;
#138 = DIRECTION ( 'NONE',  ( -0.000000000000000000, -0.000000000000000000, 1.000000000000000000 ) ) ;
#139 = CLOSED_SHELL ( 'NONE', ( #291, #17, #11, #114, #78, #127, #243, #268, #23, #316, #60, #86 ) ) ;
#140 = FACE_OUTER_BOUND ( 'NONE', #183, .T. ) ;
#141 = DIRECTION ( 'NONE',  ( 1.000000000000000000, 0.000000000000000000, 0.000000000000000000 ) ) ;
#142 = EDGE_CURVE ( 'NONE', #201, #201, #14, .T. ) ;
#143 = DIRECTION ( 'NONE',  ( 1.000000000000000000, 0.000000000000000000, 0.000000000000000000 ) ) ;
#144 = FACE_OUTER_BOUND ( 'NONE', #121, .T. ) ;
#145 = AXIS2_PLACEMENT_3D ( 'NONE', #219, #119, #141 ) ;
#146 = APPLICATION_PROTOCOL_DEFINITION ( 'international standard', 'config_control_design', 1994, #90 ) ;
#147 = CARTESIAN_POINT ( 'NONE',  ( 15.00000000000000000, 0.000000000000000000, 3.399999999999999911 ) ) ;
#148 = EDGE_LOOP ( 'NONE', ( #256 ) ) ;
#149 = EDGE_CURVE ( 'NONE', #76, #76, #323, .T. ) ;
#150 = CARTESIAN_POINT ( 'NONE',  ( 2.000000000000000000, 0.000000000000000000, 2.000000000000001776 ) ) ;
#151 = DIRECTION ( 'NONE',  ( -1.000000000000000000, 0.000000000000000000, 0.000000000000000000 ) ) ;
#152 = ORIENTED_EDGE ( 'NONE', *, *, #249, .T. ) ;
#153 = VERTEX_POINT ( 'NONE', #18 ) ;
#154 = ORIENTED_EDGE ( 'NONE', *, *, #203, .T. ) ;
#155 = DATE_TIME_ROLE ( 'creation_date' ) ;
#156 = ORIENTED_EDGE ( 'NONE', *, *, #208, .F. ) ;
#157 = CARTESIAN_POINT ( 'NONE',  ( 0.000000000000000000, 0.000000000000000000, 1.448888739433602302 ) ) ;
#158 = CALENDAR_DATE ( 2025, 14, 8 ) ;
#159 = DIRECTION ( 'NONE',  ( 0.000000000000000000, 0.000000000000000000, -1.000000000000000000 ) ) ;
#160 = SHAPE_DEFINITION_REPRESENTATION ( #83, #48 ) ;
#161 = EDGE_LOOP ( 'NONE', ( #156 ) ) ;
#162 = EDGE_CURVE ( 'NONE', #100, #100, #265, .T. ) ;
#163 = DIRECTION ( 'NONE',  ( -1.000000000000000000, 0.000000000000000000, 0.000000000000000000 ) ) ;
#164 = DIRECTION ( 'NONE',  ( -0.000000000000000000, -0.000000000000000000, -1.000000000000000000 ) ) ;
#165 = LOCAL_TIME ( 12, 20, 56.00000000000000000, #104 ) ;
#166 = CYLINDRICAL_SURFACE ( 'NONE', #171, 15.00000000000000000 ) ;
#167 = CIRCLE ( 'NONE', #3, 2.000000000000000000 ) ;
#168 = DIRECTION ( 'NONE',  ( -1.000000000000000000, 0.000000000000000000, 0.000000000000000000 ) ) ;
#169 = DIRECTION ( 'NONE',  ( -0.000000000000000000, -0.000000000000000000, 1.000000000000000000 ) ) ;
#170 = DIRECTION ( 'NONE',  ( 0.000000000000000000, 0.000000000000000000, 1.000000000000000000 ) ) ;
#171 = AXIS2_PLACEMENT_3D ( 'NONE', #196, #289, #12 ) ;
#172 = VERTEX_POINT ( 'NONE', #250 ) ;
#173 = EDGE_LOOP ( 'NONE', ( #62 ) ) ;
#174 = COORDINATED_UNIVERSAL_TIME_OFFSET ( 2, 0, .AHEAD. ) ;
#175 = VERTEX_POINT ( 'NONE', #120 ) ;
#176 = CC_DESIGN_APPROVAL ( #273, ( #63 ) ) ;
#177 = EDGE_CURVE ( 'NONE', #297, #297, #270, .T. ) ;
#178 = DATE_AND_TIME ( #158, #88 ) ;
#179 = CARTESIAN_POINT ( 'NONE',  ( 0.000000000000000000, 6.169784565231699602, 3.399999999999999911 ) ) ;
#180 = LOCAL_TIME ( 12, 20, 56.00000000000000000, #174 ) ;
#181 = AXIS2_PLACEMENT_3D ( 'NONE', #13, #96, #192 ) ;
#182 = DATE_AND_TIME ( #135, #165 ) ;
#183 = EDGE_LOOP ( 'NONE', ( #84 ) ) ;
#184 = CC_DESIGN_PERSON_AND_ORGANIZATION_ASSIGNMENT ( #222, #73, ( #7 ) ) ;
#185 = APPROVAL_DATE_TIME ( #284, #273 ) ;
#186 = ORIENTED_EDGE ( 'NONE', *, *, #208, .T. ) ;
#187 = ORIENTED_EDGE ( 'NONE', *, *, #162, .T. ) ;
#188 = CONICAL_SURFACE ( 'NONE', #264, 15.00000000000000000, 1.308996938995746318 ) ;
#189 = DIRECTION ( 'NONE',  ( 1.000000000000000000, 0.000000000000000000, 0.000000000000000000 ) ) ;
#190 = DIRECTION ( 'NONE',  ( -0.000000000000000000, -0.000000000000000000, 1.000000000000000000 ) ) ;
#191 = UNCERTAINTY_MEASURE_WITH_UNIT (LENGTH_MEASURE( 1.000000000000000082E-05 ), #325, 'distance_accuracy_value', 'NONE');
#192 = DIRECTION ( 'NONE',  ( -1.000000000000000000, 0.000000000000000000, 0.000000000000000000 ) ) ;
#193 = PRODUCT_DEFINITION ( 'UNKNOWN', '', #63, #54 ) ;
#194 = CARTESIAN_POINT ( 'NONE',  ( 0.000000000000000000, 0.000000000000000000, -3.399999999999999911 ) ) ;
#195 = CARTESIAN_POINT ( 'NONE',  ( 0.000000000000000000, 0.000000000000000000, -1.999999999999994893 ) ) ;
#196 = CARTESIAN_POINT ( 'NONE',  ( 0.000000000000000000, 0.000000000000000000, 3.399999999999999911 ) ) ;
#197 = EDGE_CURVE ( 'NONE', #172, #172, #224, .T. ) ;
#198 = CARTESIAN_POINT ( 'NONE',  ( 4.000000000000000000, 0.000000000000000000, -3.399999999999999911 ) ) ;
#199 = EDGE_LOOP ( 'NONE', ( #187 ) ) ;
#200 = AXIS2_PLACEMENT_3D ( 'NONE', #116, #318, #163 ) ;
#201 = VERTEX_POINT ( 'NONE', #300 ) ;
#202 = CARTESIAN_POINT ( 'NONE',  ( 4.000000000000000000, 0.000000000000000000, 3.399999999999999911 ) ) ;
#203 = EDGE_CURVE ( 'NONE', #327, #327, #27, .T. ) ;
#204 =( NAMED_UNIT ( * ) PLANE_ANGLE_UNIT ( ) SI_UNIT ( $, .RADIAN. ) );
#205 = AXIS2_PLACEMENT_3D ( 'NONE', #266, #41, #43 ) ;
#206 = FACE_OUTER_BOUND ( 'NONE', #6, .T. ) ;
#207 = CARTESIAN_POINT ( 'NONE',  ( 0.000000000000000000, 0.000000000000000000, 98.00000000000000000 ) ) ;
#208 = EDGE_CURVE ( 'NONE', #153, #153, #68, .T. ) ;
#209 = DIRECTION ( 'NONE',  ( 1.000000000000000000, 0.000000000000000000, 0.000000000000000000 ) ) ;
#210 = ORGANIZATION ( 'UNSPECIFIED', 'UNSPECIFIED', '' ) ;
#211 = FACE_OUTER_BOUND ( 'NONE', #125, .T. ) ;
#212 = CYLINDRICAL_SURFACE ( 'NONE', #9, 4.000000000000000000 ) ;
#213 = CC_DESIGN_PERSON_AND_ORGANIZATION_ASSIGNMENT ( #238, #258, ( #193 ) ) ;
#214 = ORIENTED_EDGE ( 'NONE', *, *, #142, .F. ) ;
#215 = CC_DESIGN_APPROVAL ( #71, ( #322 ) ) ;
#216 = AXIS2_PLACEMENT_3D ( 'NONE', #126, #75, #275 ) ;
#217 = CARTESIAN_POINT ( 'NONE',  ( 0.000000000000000000, 0.000000000000000000, -2.000000000000001776 ) ) ;
#218 = CARTESIAN_POINT ( 'NONE',  ( 0.000000000000000000, 0.000000000000000000, 3.399999999999999911 ) ) ;
#219 = CARTESIAN_POINT ( 'NONE',  ( 0.000000000000000000, 0.000000000000000000, 2.000000000000001776 ) ) ;
#220 = DIRECTION ( 'NONE',  ( -1.000000000000000000, 0.000000000000000000, 0.000000000000000000 ) ) ;
#221 = DIRECTION ( 'NONE',  ( 1.000000000000000000, 0.000000000000000000, 0.000000000000000000 ) ) ;
#222 = PERSON_AND_ORGANIZATION ( #85, #210 ) ;
#223 = EDGE_LOOP ( 'NONE', ( #186 ) ) ;
#224 = CIRCLE ( 'NONE', #200, 11.11177143234621667 ) ;
#225 = DIRECTION ( 'NONE',  ( 1.000000000000000000, 0.000000000000000000, 0.000000000000000000 ) ) ;
#226 = APPROVAL_PERSON_ORGANIZATION ( #26, #71, #35 ) ;
#227 = AXIS2_PLACEMENT_3D ( 'NONE', #15, #190, #221 ) ;
#228 = CARTESIAN_POINT ( 'NONE',  ( 4.000000000000000000, 0.000000000000000000, 2.000000000000005329 ) ) ;
#229 = ORIENTED_EDGE ( 'NONE', *, *, #177, .F. ) ;
#230 = APPLICATION_PROTOCOL_DEFINITION ( 'international standard', 'config_control_design', 1994, #242 ) ;
#231 = CYLINDRICAL_SURFACE ( 'NONE', #277, 2.000000000000000000 ) ;
#232 = CC_DESIGN_PERSON_AND_ORGANIZATION_ASSIGNMENT ( #133, #301, ( #63 ) ) ;
#233 = EDGE_LOOP ( 'NONE', ( #134 ) ) ;
#234 = DIRECTION ( 'NONE',  ( 0.000000000000000000, 0.000000000000000000, -1.000000000000000000 ) ) ;
#235 = CIRCLE ( 'NONE', #328, 15.00000000000000000 ) ;
#236 = EDGE_CURVE ( 'NONE', #271, #271, #251, .T. ) ;
#237 = PLANE ( 'NONE',  #122 ) ;
#238 = PERSON_AND_ORGANIZATION ( #85, #210 ) ;
#239 = EDGE_LOOP ( 'NONE', ( #132 ) ) ;
#240 = DIRECTION ( 'NONE',  ( 1.000000000000000000, 0.000000000000000000, 0.000000000000000000 ) ) ;
#241 = DIRECTION ( 'NONE',  ( 1.000000000000000000, 0.000000000000000000, 0.000000000000000000 ) ) ;
#242 = APPLICATION_CONTEXT ( 'configuration controlled 3d designs of mechanical parts and assemblies' ) ;
#243 = ADVANCED_FACE ( 'NONE', ( #263, #293 ), #188, .T. ) ;
#244 = CARTESIAN_POINT ( 'NONE',  ( 0.000000000000000000, 0.000000000000000000, 2.490736444124057147 ) ) ;
#245 = DIRECTION ( 'NONE',  ( -1.000000000000000000, 0.000000000000000000, 0.000000000000000000 ) ) ;
#246 = APPROVAL_PERSON_ORGANIZATION ( #253, #273, #260 ) ;
#247 = CARTESIAN_POINT ( 'NONE',  ( 0.000000000000000000, 0.000000000000000000, 3.399999999999999911 ) ) ;
#248 = PERSON_AND_ORGANIZATION ( #85, #210 ) ;
#249 = EDGE_CURVE ( 'NONE', #299, #299, #99, .T. ) ;
#250 = CARTESIAN_POINT ( 'NONE',  ( -11.11177143234621667, 0.000000000000000000, 1.448888739433601858 ) ) ;
#251 = CIRCLE ( 'NONE', #294, 15.00000000000000000 ) ;
#252 =( NAMED_UNIT ( * ) SI_UNIT ( $, .STERADIAN. ) SOLID_ANGLE_UNIT ( ) );
#253 = PERSON_AND_ORGANIZATION ( #85, #210 ) ;
#254 = EDGE_LOOP ( 'NONE', ( #57 ) ) ;
#255 = APPROVAL_PERSON_ORGANIZATION ( #248, #287, #97 ) ;
#256 = ORIENTED_EDGE ( 'NONE', *, *, #305, .T. ) ;
#257 = DIRECTION ( 'NONE',  ( -1.000000000000000000, 0.000000000000000000, -0.000000000000000000 ) ) ;
#258 = PERSON_AND_ORGANIZATION_ROLE ( 'creator' ) ;
#259 = DIRECTION ( 'NONE',  ( 1.000000000000000000, 0.000000000000000000, 0.000000000000000000 ) ) ;
#260 = APPROVAL_ROLE ( '' ) ;
#261 = DIRECTION ( 'NONE',  ( -0.000000000000000000, -0.000000000000000000, 1.000000000000000000 ) ) ;
#262 = CARTESIAN_POINT ( 'NONE',  ( 0.000000000000000000, 0.000000000000000000, -3.399999999999999911 ) ) ;
#263 = FACE_BOUND ( 'NONE', #223, .T. ) ;
#264 = AXIS2_PLACEMENT_3D ( 'NONE', #117, #292, #93 ) ;
#265 = CIRCLE ( 'NONE', #205, 4.000000000000000000 ) ;
#266 = CARTESIAN_POINT ( 'NONE',  ( 0.000000000000000000, 0.000000000000000000, 3.399999999999999911 ) ) ;
#267 = DIRECTION ( 'NONE',  ( 1.000000000000000000, 0.000000000000000000, 0.000000000000000000 ) ) ;
#268 = ADVANCED_FACE ( 'NONE', ( #317, #10 ), #115, .T. ) ;
#269 = CYLINDRICAL_SURFACE ( 'NONE', #227, 4.000000000000000000 ) ;
#270 = CIRCLE ( 'NONE', #145, 2.000000000000000000 ) ;
#271 = VERTEX_POINT ( 'NONE', #147 ) ;
#272 = CALENDAR_DATE ( 2025, 14, 8 ) ;
#273 = APPROVAL ( #31, 'UNSPECIFIED' ) ;
#274 = CC_DESIGN_SECURITY_CLASSIFICATION ( #322, ( #63 ) ) ;
#275 = DIRECTION ( 'NONE',  ( 0.000000000000000000, 1.000000000000000000, 0.000000000000000000 ) ) ;
#276 = PERSON_AND_ORGANIZATION ( #85, #210 ) ;
#277 = AXIS2_PLACEMENT_3D ( 'NONE', #207, #159, #259 ) ;
#278 = FACE_BOUND ( 'NONE', #233, .T. ) ;
#279 = AXIS2_PLACEMENT_3D ( 'NONE', #157, #261, #64 ) ;
#280 = COORDINATED_UNIVERSAL_TIME_OFFSET ( 2, 0, .AHEAD. ) ;
#281 = FACE_OUTER_BOUND ( 'NONE', #53, .T. ) ;
#282 = PERSON_AND_ORGANIZATION ( #85, #210 ) ;
#283 = DIRECTION ( 'NONE',  ( 1.000000000000000000, 0.000000000000000000, 0.000000000000000000 ) ) ;
#284 = DATE_AND_TIME ( #29, #25 ) ;
#285 = EDGE_LOOP ( 'NONE', ( #59 ) ) ;
#286 = EDGE_LOOP ( 'NONE', ( #1 ) ) ;
#287 = APPROVAL ( #319, 'UNSPECIFIED' ) ;
#288 = DIRECTION ( 'NONE',  ( -0.000000000000000000, -0.000000000000000000, 1.000000000000000000 ) ) ;
#289 = DIRECTION ( 'NONE',  ( -0.000000000000000000, -0.000000000000000000, 1.000000000000000000 ) ) ;
#290 = AXIS2_PLACEMENT_3D ( 'NONE', #37, #65, #314 ) ;
#291 = ADVANCED_FACE ( 'NONE', ( #113, #94 ), #269, .F. ) ;
#292 = DIRECTION ( 'NONE',  ( 0.000000000000000000, 0.000000000000000000, -1.000000000000000000 ) ) ;
#293 = FACE_OUTER_BOUND ( 'NONE', #82, .T. ) ;
#294 = AXIS2_PLACEMENT_3D ( 'NONE', #247, #288, #267 ) ;
#295 = DATE_AND_TIME ( #272, #180 ) ;
#296 = EDGE_LOOP ( 'NONE', ( #56 ) ) ;
#297 = VERTEX_POINT ( 'NONE', #150 ) ;
#298 = EDGE_LOOP ( 'NONE', ( #320 ) ) ;
#299 = VERTEX_POINT ( 'NONE', #198 ) ;
#300 = CARTESIAN_POINT ( 'NONE',  ( 15.00000000000000000, 0.000000000000000000, 2.490736444124057147 ) ) ;
#301 = PERSON_AND_ORGANIZATION_ROLE ( 'creator' ) ;
#302 = CARTESIAN_POINT ( 'NONE',  ( 0.000000000000000000, 0.000000000000000000, 3.399999999999999911 ) ) ;
#303 = COORDINATED_UNIVERSAL_TIME_OFFSET ( 2, 0, .AHEAD. ) ;
#304 = AXIS2_PLACEMENT_3D ( 'NONE', #244, #66, #241 ) ;
#305 = EDGE_CURVE ( 'NONE', #175, #175, #235, .T. ) ;
#306 = ORIENTED_EDGE ( 'NONE', *, *, #50, .F. ) ;
#307 = AXIS2_PLACEMENT_3D ( 'NONE', #70, #313, #245 ) ;
#308 = ORIENTED_EDGE ( 'NONE', *, *, #149, .T. ) ;
#309 = FACE_BOUND ( 'NONE', #326, .T. ) ;
#310 = DIRECTION ( 'NONE',  ( 0.000000000000000000, -0.000000000000000000, 1.000000000000000000 ) ) ;
#311 = TOROIDAL_SURFACE ( 'NONE', #307, 11.50000000000000000, 1.500000000000000222 ) ;
#312 = EDGE_CURVE ( 'NONE', #52, #52, #167, .T. ) ;
#313 = DIRECTION ( 'NONE',  ( -0.000000000000000000, -0.000000000000000000, -1.000000000000000000 ) ) ;
#314 = DIRECTION ( 'NONE',  ( 1.000000000000000000, 0.000000000000000000, 0.000000000000000000 ) ) ;
#315 = DIRECTION ( 'NONE',  ( 0.000000000000000000, 0.000000000000000000, -1.000000000000000000 ) ) ;
#316 = ADVANCED_FACE ( 'NONE', ( #46, #206 ), #124, .T. ) ;
#317 = FACE_OUTER_BOUND ( 'NONE', #285, .T. ) ;
#318 = DIRECTION ( 'NONE',  ( -0.000000000000000000, -0.000000000000000000, -1.000000000000000000 ) ) ;
#319 = APPROVAL_STATUS ( 'not_yet_approved' ) ;
#320 = ORIENTED_EDGE ( 'NONE', *, *, #305, .F. ) ;
#321 = AXIS2_PLACEMENT_3D ( 'NONE', #194, #169, #42 ) ;
#322 = SECURITY_CLASSIFICATION ( '', '', #108 ) ;
#323 = CIRCLE ( 'NONE', #290, 15.00000000000000000 ) ;
#324 = CARTESIAN_POINT ( 'NONE',  ( 15.00000000000000000, 0.000000000000000000, -2.490736444124057591 ) ) ;
#325 =( LENGTH_UNIT ( ) NAMED_UNIT ( * ) SI_UNIT ( .MILLI., .METRE. ) );
#326 = EDGE_LOOP ( 'NONE', ( #87 ) ) ;
#327 = VERTEX_POINT ( 'NONE', #24 ) ;
#328 = AXIS2_PLACEMENT_3D ( 'NONE', #262, #138, #240 ) ;
#329 = ORIENTED_EDGE ( 'NONE', *, *, #177, .T. ) ;
ENDSEC;
END-ISO-10303-21;
